Tablatures de guitare Partoches.fr, tablatures de guitare avec extraits audios au format mp3.



Recherche sur le site
  Accueil > Tablatures > Paranoid android ( Radiohead )   Tabs
écouter les extraits imprimer la tablature
Radiohead
Paranoid android
(Album : OK computer)
Transcription: Oliv'

1. Intro (guitare acoustique) / Intro (acoustic guitar) - Updated : 22/02/2009
e------------------------------------------------------------------
b--------8---------------8---------------8-------------------------
g------------8---------------8---------------8---8-----------------
d--------------------0-------------------------------0---0---0---0-
a----------------0---------------0-8---8---8---8---0---0-------0---
e--8---8---8---8---6---6---6---6---------------------------6-------

e------------------------------------------------------------------
b--------3-------3-------3-------3-3-----3-3-3-3-----3-3-----3-3-3-
g------------3---------------------3-----3-3-3-2-----2-0-----0-0-0-
d--------------------0-------0-----2-----2-2-2-0-----0-0-----0-0-0-
a------------------0---0---1---1---1-----1-1-1---------------------
e--3---3---3---3---------------------------------------------------

e------------------------------------------------------------------
b--------3-------3-------3-------3-3-----3-3-3-3-----3-3-----3-3-3-
g------------3---------------------3-----3-3-3-2-----2-0-----0-0-0-
d--------------------0-------0-----2-----2-2-2-0-----0-0-----0-0-0-
a------------------0---0---1---1---1-----1-1-1---------------------
e--3---3---3---3---------------------------------------------------


2. Intro(guitare électrique avec effet phaser) / Intro(electric guitar with phaser effect)
e-------------------------------------------------------------------
b-------------------------------------------------------------------
g-------------------------------------------------------------------
d-------------------------------------------------------------------
a-------------------------------------------------------------------
e-------------------------------------------------------------------

e-------------------------------------------------------------------
b-----------------------------15--15------15--15------15--------15--
g-------------------------------15--15------15--14------12--12------
d-------------------------------------------------------------------
a-------------------------------------------------------------------
e-------------------------------------------------------------------

e-------------------------------------------------------------------
b--12~~------------------------3---3-------3---3------3---------3---
g--------------------------------3---3-------3---2------0---0-------
d-------------------------------------------------------------------
a-------------------------------------------------------------------
e-------------------------------------------------------------------

Note débordant sur le couplet:
e------
b--4---
g------
d------
a------
e------

3. Couplet1 (guitare acoustique) / Verse1 (acoustic guitar) - Updated : 22/02/2009
e------------------------------------------------------------------
b--------8---------------8---------------8-------------------------
g------------8---------------8---------------8---8-----------------
d--------------------0-------------------------------0---0---0---0-
a----------------0---------------0-8---8---8---8---0---0-------0---
e--8---8---8---8---6---6---6---6---------------------------6-------

e------------------------------------------------------------------
b--------3-------3-------3-------3-3-----3-3-3-3-----3-3-----3-3-3-
g------------3---------------------3-----3-3-3-2-----2-0-----0-0-0-
d--------------------0-------0-----2-----2-2-2-0-----0-0-----0-0-0-
a------------------0---0---1---1---1-----1-1-1---------------------
e--3---3---3---3---------------------------------------------------

e------------------------------------------------------------------
b--------3-------3-------3-------3-3-----3-3-3-3-----3-3-----3-3-3-
g------------3---------------------3-----3-3-3-2-----2-0-----0-0-0-
d--------------------0-------0-----2-----2-2-2-0-----0-0-----0-0-0-
a------------------0---0---1---1---1-----1-1-1---------------------
e--3---3---3---3---------------------------------------------------

e------------------------------------------------------------------
b--------8---------------8---------------8-------------------------
g------------8---------------8---------------8---8-----------------
d--------------------0-------------------------------0---0---0---0-
a----------------0---------------0-8---8---8---8---0---0-------0---
e--8---8---8---8---6---6---6---6---------------------------6-------

e------------------------------------------------------------------
b--------3-------3-------3-------3-3-----3-3-3-3-----3-3-----3-3-3-
g------------3---------------------3-----3-3-3-2-----2-0-----0-0-0-
d--------------------0-------0-----2-----2-2-2-0-----0-0-----0-0-0-
a------------------0---0---1---1---1-----1-1-1---------------------
e--3---3---3---3---------------------------------------------------

4. Couplet1 (guitare électrique) / Verse1 (electric guitar)
e-------------------------------------------------------------------
b-------------------------------------------------------------------
g-------------------------------------------------------------------
d-------------------------------------------------------------------
a-------------------------------------------------------------------
e-------------------------------------------------------------------

e-------------------------------------------------------------------
b-----------------------------15--15------15--15------15--------15--
g-------------------------------15--15------15--14------12--12------
d-------------------------------------------------------------------
a-------------------------------------------------------------------
e-------------------------------------------------------------------

e-------------------------------------------------------------------
b--12~~------------------------3---3-------3---3------3---------3---
g--------------------------------3---3-------3---2------0---0-------
d-------------------------------------------------------------------
a-------------------------------------------------------------------
e-------------------------------------------------------------------

e-------------------------------------------------------------------
b--4-----------------------------------------------3(4)3(4)3--------
g-------------------------------------------------------------------
d-------------------------------------------------------------------
a-------------------------------------------------------------------
e-------------------------------------------------------------------

e-------------------------------------------------------------------
b-----------------------------15--15------15--15------15------------
g-------------------------------15--15------15--14------12--12------
d-------------------------------------------------------------------
a-------------------------------------------------------------------
e-------------------------------------------------------------------

5. Refrain1 (Guitare acoustique) / Refrain 1 (acoustic guitar)
e--------0---------------0---------------0---------------0---------
b------------3---3---3-------3---3-----------3---3---3-------3---3-
g--3---3---3---3---3---3---3---3---2---2---2---2---2---2---2---2---
d--0-------------------------------3-------------------------------
a--X-------------------------------X-------------------------------
e--3-------------------------------1-------------------------------

e--------0---------------0---------------0---------------0---------
b------------3---3---3-------3---3-----------3---3---3-------3---3-
g--1---1---1---1---1---1---1---1---3---3---3---3---3---3---3---3---
d--2-------------------------------0-------------------------------
a--2-------------------------------X-------------------------------
e--0-------------------------------3-------------------------------

e--------0---------------0---------------0---------------0---------
b------------3---3---3-------3---3-----------3---3---3-------3---3-
g--2---2---2---2---2---2---2---2---1---1---1---1---1---1---1---1---
d--3-------------------------------2-------------------------------
a--X-------------------------------2-------------------------------
e--1-------------------------------0-------------------------------

e--------0---------------0---------
b------------3---3---3-------3---3-
g--1---1---1---1---1---1---1---1---
d--2-------------------------------
a--2-------------------------------
e--0-------------------------------

6. Refrain1(guitare électrique avec pitch shifter)/Refrain1(electric guitar with pitch shifter)
A jouer avec pitch shifter réglé sur +1 octave
Play this riff with pitch shifter effect on +1 octave
e--------12--------------12--------------12--------------12------
b------15----15--------15----15--------15----15--------15----15--
g--15--------------15----------15--14--------------14----------14
d----------------------------------------------------------------
a----------------------------------------------------------------
e----------------------------------------------------------------

e--------12--------------12--------------12--------------12------
b------15----15--------15----15--------15----15--------15----15--
g--13--------------13----------13--15--------------15----------15
d----------------------------------------------------------------
a----------------------------------------------------------------
e----------------------------------------------------------------

e--------12--------------12--------------12--------------12------
b------15----15--------15----15--------15----15--------15----15--
g--14--------------14----------14--13--------------13------------
d----------------------------------------------------------------
a----------------------------------------------------------------
e----------------------------------------------------------------

e--------12--------------12-------
b------15----15--------15----15---
g--13--------------13-------------
d---------------------------------
a---------------------------------
e---------------------------------

7. Pont1 (guitare acoustique) / Bridge1 (acoustic guitar)
e------------------------------------------------------------------
b------------------------------------------------------------------
g------------------------------------------------------------------
d------------------------------------------------------------------
a--X---X-X-3-X-X-X---X-X-X-3---5---X---X-X-3-X-X-X---5-3-X-5-3-X-3-
e--5---5-5-X-5-X-4---4-4-4-X---X---5---5-5-X-5-X-4---X-X-5-X-X-5-X-

e------------------------------------------------------------------
b------------------------------------------------------------------
g------------------------------------------------------------------
d------------------------------------------------------------------
a--X---X-X-3-X-X-X---X-X-X-3---5---X---X-X-3-X-X-X---5-3-X-5-3-X-3-
e--5---5-5-X-5-X-4---4-4-4-X---X---5---5-5-X-5-X-4---X-X-5-X-X-5-X-

e----------------------------------------------------------
b--X---X-X-X-X-X-6-X-6-X-X-8---X---X-X-X-X-X-6-X-6-X-X-8---
g--9---9-9-9-10X-5-X-5-X-X-7---9---9-9-9-10X-5-X-5-X-X-7---
d--10--10101010X-6-X-6-X-X-8---10--10101010X-6-X-6-X-X-8---
a--X---X-X-X-X-X-X-X-X-X-X-X---X---X-X-X-X-X-X-X-X-X-X-X---
e--8---8-8-8-8-X-4-X-4-X-X-6---8---8-8-8-8-X-4-X-4-X-X-6---

e------------------------------------------------------------
b--X---X-X-X-X-X-6-X-6-X-X-8---X---X-X-X-X-X-X-X-X-X-X-X-X---
g--9---9-9-9-10X-5-X-5-X-X-7---9---9-9-9-10X-X-9-8-X-7-X-5---
d--10--10101010X-6-X-6-X-X-8---10--10101010X-X-109-X-8-X-6---
a--X---X-X-X-X-X-X-X-X-X-X-X---X---X-X-X-X-X-X-X-X-X-X-X-X---
e--8---8-8-8-8-X-4-X-4-X-X-6---8---8-8-8-8-X-X-8-7-X-6-X-4---

8. Pont1 (guitare électrique) / Bridge1 (electric guitar)
e------------------------------------------------------------------
b------------------------------------------------------------------
g------------------------------------------------------------------
d------------------------------------------------------------------
a------------------------------------------------------------------
e------------------------------------------------------------------

e------------------------------------------------------------------
b------------------------------------------------------------------
g------------------------------------------------------------------
d------------------------------------------------------------------
a------------------------------------------------------------------
e------------------------------------------------------------------

e----------------------------------------------------------
b--------------------6-----8---------------------6-----8---
g----------9-10------5-----7-----------9-10------5-----7---
d----------1010------6-----8-----------1010------6-----8---
a----------X-X-X-----X-X-X-X-----------X-X-X-----X-X-X-X---
e--8---8-8-8-8-X-4---4-X-X-6---8---8-8-8-8-X-4---4-X-X-6---

e------------------------------------------------------------
b--------------------6-----8---------------------------------
g----------9-10------5-----7-----------9-10------------------
d----------1010------6-----8-----------1010------------------
a----------X-X-X-----X-X-X-X-----------X-X-X-----------------
e--8---8-8-8-8-X-4---4-X-X-6---8---8-8-8-8-X-----------------

9. Couplet 2 (guitare acoustique) / Verse 2 (acoustic guitar)
e------------------------------------------------------------------
b------------------------------------------------------------------
g------------------------------------------------------------------
d------------------------------------------------------------------
a--X---X-X-3-X-X-X---X-X-X-3---5---X---X-X-3-X-X-X---X-X-X-3---5---
e--5---5-5-X-5-X-4---4-4-4-X---X---5---5-5-X-5-X-4---4-4-4-X---X---

e------------------------------------------------------------------
b------------------------------------------------------------------
g------------------------------------------------------------------
d------------------------------------------------------------------
a--X---X-X-3-X-X-X---X-X-X-3---5---X---X-X-3-X-X-X---X-X-X-3---5---
e--5---5-5-X-5-X-4---4-4-4-X---X---5---5-5-X-5-X-4---4-4-4-X---X---

e----------------------------------------------------------
b--X---X-X-X-X-X-6-X-6-X-X-8---X---X-X-X-X-X-6-X-6-X-X-8---
g--9---9-9-9-10X-5-X-5-X-X-7---9---9-9-9-10X-5-X-5-X-X-7---
d--10--10101010X-6-X-6-X-X-8---10--10101010X-6-X-6-X-X-8---
a--X---X-X-X-X-X-X-X-X-X-X-X---X---X-X-X-X-X-X-X-X-X-X-X---
e--8---8-8-8-8-X-4-X-4-X-X-6---8---8-8-8-8-X-4-X-4-X-X-6---

e------------------------------------------------------------
b--X---X-X-X-X-X-6-X-6-X-X-8---X---X-X-X-X-X-X-X-X-X-X-X-X---
g--9---9-9-9-10X-5-X-5-X-X-7---9---9-9-9-10X-X-9-8-X-7-X-5---
d--10--10101010X-6-X-6-X-X-8---10--10101010X-X-109-X-8-X-6---
a--X---X-X-X-X-X-X-X-X-X-X-X---X---X-X-X-X-X-X-X-X-X-X-X-X---
e--8---8-8-8-8-X-4-X-4-X-X-6---8---8-8-8-8-X-X-8-7-X-6-X-4---

e------------------------------------------------------------------
b------------------------------------------------------------------
g------------------------------------------------------------------
d------------------------------------------------------------------
a--X---X-X-3-X-X-X---X-X-X-3---5---X---X-X-3-X-X-X---X-X-X-3---5---
e--5---5-5-X-5-X-4---4-4-4-X---X---5---5-5-X-5-X-4---4-4-4-X---X---

e------------------------------------------------------------------
b------------------------------------------------------------------
g------------------------------------------------------------------
d------------------------------------------------------------------
a--X---X-X-3-X-X-X---X-X-X-3---5---X---X-X-3-X-X-X---X-X-X-3---5---
e--5---5-5-X-5-X-4---4-4-4-X---X---5---5-5-X-5-X-4---4-4-4-X---X---

e----------8---X-4-X-4-X-X-6-----------8---X-4-X-4-X-X-6---
b----------8---X-4-X-4-X-X-6-----------8---X-4-X-4-X-X-6---
g--9---9-9-9---X-5-X-5-X-X-7---9---9-9-9---X-5-X-5-X-X-7---
d--10--101010--X-6-X-6-X-X-8---10--101010--X-6-X-6-X-X-8---
a--10--101010--X-6-X-6-X-X-8---10--101010--X-6-X-6-X-X-8---
e--8---8-8-8---X-4-X-4-X-X-6---8---8-8-8---X-4-X-4-X-X-6---

e----------8---X-4-X-4-X-X-6-----------8---X-X-8-7-X-6-X-4---
b----------8---X-4-X-4-X-X-6-----------8---X-X-8-7-X-6-X-4---
g--9---9-9-9---X-5-X-5-X-X-7---9---9-9-9---X-X-9-8-X-7-X-5---
d--10--101010--X-6-X-6-X-X-8---10--101010--X-X-109-X-8-X-6---
a--10--101010--X-6-X-6-X-X-8---10--101010--X-X-109-X-8-X-6---
e--8---8-8-8---X-4-X-4-X-X-6---8---8-8-8---X-X-8-7-X-6-X-4---

10. Couplet 2 (guitare électrique) / Verse 2 (electric guitar)
Jouer en étouffant les cordes avec la main droite
Play damping strings with right hand.
e------------------------------------------------------------------
b------------------------------------------------------------------
g------------------------------------------------------------------
d------------------------------------------------------------------
a------------------------------------------3---------------3---5---
e----------------------------------5---5-5---5---4---4-4-4---------

e------------------------------------------------------------------
b------------------------------------------------------------------
g------------------------------------------------------------------
d------------------------------------------------------------------
a------------------------------------------3---------------3---5---
e----------------------------------5---5-5---5---4---4-4-4---------

e----------------------------------------------------------
b--------------------6-----8---------------------6-----8---
g----------9-10------5-----7-----------9-10------5-----7---
d----------1010------6-----8-----------1010------6-----8---
a----------X-X-X-----X-X-X-X-----------X-X-X-----X-X-X-X---
e--8---8-8-8-8-X-4---4-X-X-6---8---8-8-8-8-X-4---4-X-X-6---

e------------------------------------------------------------
b--------------------6-----8---------------------------------
g----------9-10------5-----7-----------9-10------------------
d----------1010------6-----8-----------1010------------------
a----------X-X-X-----X-X-X-X-----------X-X-X-----------------
e--8---8-8-8-8-X-4---4-X-X-6---8---8-8-8-8-X-----------------

e------------------------------------------------------------------
b------------------------------------------------------------------
g------------------------------------------------------------------
d------------------------------------------------------------------
a------------------------------------------3---------------3---5---
e--12\-----------------------------5---5-5---5---4---4-4-4---------

e------------------------------------------------------------------
b------------------------------------------------------------------
g------------------------------------------------------------------
d------------------------------------------------------------------
a--(5)B6/----------------------------------3---------------3---5---
e----------------------------------5---5-5---5---4---4-4-4---------

e------------------------------------------------------------
b----------8/--------------------------8/--------------------
g----------9/--X-5-X-5-X-X-7-----------9/--X-5-X-5-X-X-7-----
d----------10/-X-6-X-6-X-X-8-----------10/-X-6-X-6-X-X-8-----
a--10------10/-X-6-X-6-X-X-8---10------10/-X-6-X-6-X-X-8-----
e--8-----------X-4-X-4-X-X-6---8-----------X-4-X-4-X-X-6-----

e------------------------------------------------------------
b----------8/--------------------------8/--------------------
g----------9/--X-5-X-5-X-X-7-----------9/--X-X-9-8-X-7-X-5---
d----------10/-X-6-X-6-X-X-8-----------10/-X-X-109-X-8-X-6---
a--10------10/-X-6-X-6-X-X-8---10------10/-X-X-109-X-8-X-6---
e--8-----------X-4-X-4-X-X-6---8-----------X-X-8-7-X-6-X-4---

11. Guitare acoustique pendant solo / Acoustic guitar during solo
e------------------------------------------------------------------
b------------------------------------------------------------------
g------------------------------------------------------------------
d------------------------------------------------------------------
a--X---X-X-3-X-X-X---X-X-X-3---5---X---X-X-3-X-X-X---X-X-X-3---5---
e--5---5-5-X-5-X-4---4-4-4-X---X---5---5-5-X-5-X-4---4-4-4-X---X---

e------------------------------------------------------------------
b------------------------------------------------------------------
g------------------------------------------------------------------
d------------------------------------------------------------------
a--X---X-X-3-X-X-X---X-X-X-3---5---X---X-X-3-X-X-X---X-X-X-3---5---
e--5---5-5-X-5-X-4---4-4-4-X---X---5---5-5-X-5-X-4---4-4-4-X---X---

e----------8---X-4-X-4-X-X-6-----------8---X-4-X-4-X-X-6---
b----------8---X-4-X-4-X-X-6-----------8---X-4-X-4-X-X-6---
g--9---9-9-9---X-5-X-5-X-X-7---9---9-9-9---X-5-X-5-X-X-7---
d--10--101010--X-6-X-6-X-X-8---10--101010--X-6-X-6-X-X-8---
a--10--101010--X-6-X-6-X-X-8---10--101010--X-6-X-6-X-X-8---
e--8---8-8-8---X-4-X-4-X-X-6---8---8-8-8---X-4-X-4-X-X-6---

e----------8---X-4-X-4-X-X-6-----------8---X-X-8-7-X-6-X-4-X-1--
b----------8---X-4-X-4-X-X-6-----------8---X-X-8-7-X-6-X-4-X-1--
g--9---9-9-9---X-5-X-5-X-X-7---9---9-9-9---X-X-9-8-X-7-X-5-X-2--
d--10--101010--X-6-X-6-X-X-8---10--101010--X-X-109-X-8-X-6-X-3--
a--10--101010--X-6-X-6-X-X-8---10--101010--X-X-109-X-8-X-6-X-3--
e--8---8-8-8---X-4-X-4-X-X-6---8---8-8-8---X-X-8-7-X-6-X-4-X-1--

12. Solo (Guitare électrique) / Solo (electric guitar)
e--6/20-20-20-20-20-20-...-20---22---20-20-20-20-...-20--
b----X--X--X--X--X--X------X----X----X--X--X--X------X---
g--------------------------------------------------------
d--------------------------------------------------------
a--------------------------------------------------------
e--------------------------------------------------------

e---------20-19B(20)-20---20-------20-19B(20)---20-------20-19B(20)-
b--19B(20)------------------19B(20)---------------19B(20)-----------
g-------------------------------------------------------------------
d-------------------------------------------------------------------
a-------------------------------------------------------------------
e-------------------------------------------------------------------

e--20----------19-20-19-20-19-20-19-20-----
b------19B(20)-----------------------------
g------------------------------------------
d------------------------------------------
a------------------------------------------
e------------------------------------------

e------------------------------------------------------
b-8-10-10B11+b10---10B11+b10---8---9-11-11B12+b11---9--
g------------------------------------------------------
d------------------------------------------------------
a------------------------------------------------------
e------------------------------------------------------

e------------------------------------------------------
b-8-10-10B11+b10---10B11+b10---8---7-9---7-------------
g--------------------------------------9---7-----------
d--------------------------------------------9---------
a------------------------------------------------------
e------------------------------------------------------

e------------------------------------------------------
b-8-10-10B11+b10---10B11+b10---8---9-11-11B12+b11---9--
g------------------------------------------------------
d------------------------------------------------------
a------------------------------------------------------
e------------------------------------------------------

e-------------------------------------------------------
b-8-10-10B11+b10---10B11+b10---8---10-9---8---7---------
g-------------------------------------------------------
d-------------------------------------------------------
a---------------------------------------------------/12-
e-------------------------------------------------------

13. Pont2 (Guitare acoustique) / Bridge2 (acoustic guitar)
e----------3-----X---------3------X--------------X---------5------X-
b----------4-----X---------3------X--------8-----X---------5------X-
g----------0-----X---------0------X--------7-----X---------6------X-
d----------X-----X---------X------X--------8-----X---------7------X-
a--3-------3-------2-------2---------------X---------------7--------
e----------------------------------6-------6-------5-------5--------

e----------5-----X---------5-----X---------5-----X-------X-X-X----X-
b----------6-----X---------5-----X---------6-----X-------6-6-6----X-
g----------7-----X---------6-----X---------7-----X-------0-0-0----X-
d----------7-----X---------7-----X---------7-----X-------X-X-X----X-
a--5-------5---------------7-------5-------5---------------7--------
e------------------5-------5-----------------------8-------8--------

e----------6-----X---------5-5---X---------3-----X---------1-1----X-
b----------6-----X---------6-6---X---------3-----X---------1-1----X-
g----------7-----X---------5-5---X---------3-----X---------2-2----X-
d----------8-----X---------7-7---X---------5-----X---------3-3----X-
a----------8---------------7---------------5---------------3--------
e--6-------6-------5-------5-------3-------3-------1-------1--------

e----------0-----0---------0-0---0---------0-----0---------0-0----X-
b----------0-----0---------0-0---0---------2-----2---------2-2----X-
g----------1-----1---------1-1-------------2-----2---------2-2----X-
d----------2-----2---------2-2-------------2-----2---------2-2----X-
a----------2---------------2-------0-------0-------0-------0--------
e--0-------0-------0-------0----------------------------------------

14. Couplet3 (Guitare acoustique) / Verse3 (acoustic guitar)
jouer trois fois le riff du pont 2 (Guitare acoustique)
Play 3 times the 2nd bridge riff (acoustic guitar)
Remplacer la 3e fois la dernière ligne par:
Substitute the 3rd times the bottom line by this:
e----------0-----0---------0-0---0---------0-----0---------0-0----X-
b----------0-----0---------0-0---0---------0-----0---------0-0----X-
g----------1-----1---------1-1-------------1-----1---------1-1----X-
d----------2-----2---------2-2-------------2-----2---------2-2----X-
a----------2---------------2---------------2---------------2--------
e--0-------0-------0-------0-------0-------0-------0-------0--------

15. Fin (Guitare acoustique) / End (electric guitar)
e------------------------------------------------------------------
b------------------------------------------------------------------
g------------------------------------------------------------------
d------------------------------------------------------------------
a--X---X-X-3-X-X-X---X-X-X-3---5---X---X-X-3-X-X-X---X-X-X-3---5---
e--5---5-5-X-5-X-4---4-4-4-X---X---5---5-5-X-5-X-4---4-4-4-X---X---

e------------------------------------------------------------------
b------------------------------------------------------------------
g------------------------------------------------------------------
d------------------------------------------------------------------
a--X---X-X-3-X-X-X---X-X-X-3---5---X---X-X-3-X-X-X---X-X-X-3---5---
e--5---5-5-X-5-X-4---4-4-4-X---X---5---5-5-X-5-X-4---4-4-4-X---X---

e----------8---X-4-X-4-X-X-6-----------8---X-4-X-4-X-X-6---
b----------8---X-4-X-4-X-X-6-----------8---X-4-X-4-X-X-6---
g--9---9-9-9---X-5-X-5-X-X-7---9---9-9-9---X-5-X-5-X-X-7---
d--10--101010--X-6-X-6-X-X-8---10--101010--X-6-X-6-X-X-8---
a--10--101010--X-6-X-6-X-X-8---10--101010--X-6-X-6-X-X-8---
e--8---8-8-8---X-4-X-4-X-X-6---8---8-8-8---X-4-X-4-X-X-6---

e----------8---X-4-X-4-X-X-6-----------8---X-X-8-7-X-6-X-4-X-
b----------8---X-4-X-4-X-X-6-----------8---X-X-8-7-X-6-X-4-X-
g--9---9-9-9---X-5-X-5-X-X-7---9---9-9-9---X-X-9-8-X-7-X-5-X-
d--10--101010--X-6-X-6-X-X-8---10--101010--X-X-109-X-8-X-6-X-
a--10--101010--X-6-X-6-X-X-8---10--101010--X-X-109-X-8-X-6-X-
e--8---8-8-8---X-4-X-4-X-X-6---8---8-8-8---X-X-8-7-X-6-X-4-X-

e------------------------------------------------------------------
b------------------------------------------------------------------
g------------------------------------------------------------------
d------------------------------------------------------------------
a--X---X-X-3-X-X-X---X-X-X-3---5---X---X-X-3-X-X-X---X-X-X-3---5---
e--5---5-5-X-5-X-4---4-4-4-X---X---5---5-5-X-5-X-4---4-4-4-X---X---

e------------------------------------------------------------------
b------------------------------------------------------------------
g------------------------------------------------------------------
d------------------------------------------------------------------
a--X---X-X-3-X-X-X---X-X-X-3---5---X---X-X-3-X-X-X---X-X-X-3---5---
e--5---5-5-X-5-X-4---4-4-4-X---X---5---5-5-X-5-X-4---4-4-4-X---X---

e----------8---X-4-X-4-X-X-6-----------8---X-4-X-4-X-X-6---
b----------8---X-4-X-4-X-X-6-----------8---X-4-X-4-X-X-6---
g--9---9-9-9---X-5-X-5-X-X-7---9---9-9-9---X-5-X-5-X-X-7---
d--10--101010--X-6-X-6-X-X-8---10--101010--X-6-X-6-X-X-8---
a--10--101010--X-6-X-6-X-X-8---10--101010--X-6-X-6-X-X-8---
e--8---8-8-8---X-4-X-4-X-X-6---8---8-8-8---X-4-X-4-X-X-6---

e----------8---X-4-X-4-X-X-6-----------8---X-X-8-7-X-6-X-4-X-1--
b----------8---X-4-X-4-X-X-6-----------8---X-X-8-7-X-6-X-4-X-1--
g--9---9-9-9---X-5-X-5-X-X-7---9---9-9-9---X-X-9-8-X-7-X-5-X-2--
d--10--101010--X-6-X-6-X-X-8---10--101010--X-X-109-X-8-X-6-X-3--
a--10--101010--X-6-X-6-X-X-8---10--101010--X-X-109-X-8-X-6-X-3--
e--8---8-8-8---X-4-X-4-X-X-6---8---8-8-8---X-X-8-7-X-6-X-4-X-1--

16. Solo de fin (Guitare électrique effet wha) / End solo (electric guitar with wah effect)
e--------------------------------------------------------------------
b--------------------------------------------------------------------
g------------------------------------------5---------------5---7B(8)-
d----------------------------------7---7-7---7---6---6---6-----------
a--------------------------------------------------------------------
e-----------------------------20\------------------------------------

e-----------------------------------------------------------------
b-----------------------------------------------------------------
g------------------------------------------5---------------5---7--
d----------------------------------7---7-7---7---6---6---6--------
a-----------------------------------------------------------------
e-----------------------------------------------------------------

e--10------------------------------10---------------------------
b------------------10------------------------------10-----------
g----8---------------------10--------8---------------------10---
d---------------------8------------------------------8----------
a----------------------------8-------------------------------8--
e---------------------------------------------------------------

e--10------------------------------10---------------------------
b------------------10--------------------------13-12---11---10--
g----8B(9)b(8)-------------10--------8B(9)b(8)------------------
d---------------------8-----------------------------------------
a----------------------------8----------------------------------
e---------------------------------------------------------------

e--8--8-11-----10--8--8--------8B(10)-----------------------
b--X--X-X------X---X--X---------------------------------------
g-----------------------8-------------------------------------
d-------------------------------------------------------------
a-------------------------------------------------------------
e-------------------------------------------------------------

e--8--8-11-----10--8--8--------8----8/10---8/11---8/13---X/15-
b--X--X-X------X---X--X---------------------------------------
g-----------------------8-------------------------------------
d-------------------------------------------------------------
a-------------------------------------------------------------
e-------------------------------------------------------------

e-------------------------------------------------10H8-8B(11)b(8)-8-
b-10--8-8-------10H8----------------10--8-8-------------------------
g--------------------10B(12)b(10)H8-----------8/10------------------
d-----------8/10----------------------------------------------------
a-------------------------------------------------------------------
e-------------------------------------------------------------------

e-------------------------------------------------------------------
b-10--8-8-------10H8---------------/10--8-8-------------------------
g--------------------10B(12)b(10)----------------------9-8---7---5--
d-----------8/10----------------------------------------------------
a-------------------------------------------------------------------
e-------------------------------------------------------------------

17. Composition du morceau / Form
- Intro Guitare1+Intro Guitare Guitare2 / Intro guitar1+intro guitar2
- Couplet1 Guitare1+Couplet1 Guitare2 / Verse1 guitar1+verse1 guitar2
- Refrain1 Guitare1+Refrain1 Guitare2 / Refrain1 guitar1+refrain1 guitar2
- Couplet1 Guitare1+Couplet1 Guitare2 / Verse1 guitar1+verse1 guitar2
- Refrain1 Guitare1+Refrain1 Guitare2 / Refrain1 guitar1+refrain1 guitar2
- Pont1 Guitare1+Pont1 Guitare2 / Bridge1 guitar1+bridge1 guitare2
- Couplet2 Guitare1+Couplet2 Guitare 2 / Verse2 guitar1+verse2 guitar2
- Guitare 1 pendant solo+Solo Guitare 2 / guitar1 during solo+solo guitar2
- Pont2 Guitare 1 / Bridge2 guitar1
- 3 fois Couplet3 Guitare 1 / 3 times verse3 guitar1
- Fin Guitare 1 + Solo de fin Guitare 2 / end guitar1 + end solo guitar2
Vos réactions sur cette tablature sur le forum
Keren Ann
Nolita
Archive
Again
Bérurier Noir
Salut à toi
Georges Brassens
L'orage
La religieuse
Le gorille
Le pornographe
Le roi
Les copains d'abord
Jeff Buckley
So real
Eric Clapton
Layla
Pauline Croze
La Javanaise
The Cure
Boys don't cry
Just like heaven
Three imaginary boys
Dionysos
Death Song (Ukulele)
The Doors
People are strange
The Eagles
Hotel California (Solo)
Thomas Fersen
Borborygmes
Serge Gainsbourg
La chanson de Prévert
Jimi Hendrix
Purple haze
Loïc Lantoine
Pierrot
The Last Shadow Puppets
My mistakes were made for you
Led Zeppelin
Stairway to heaven
M (Mathieu Chedid)
Mama Sam
Nostalgic du cool
Nostalgic du cool2
Mano Solo
15 ans du matin
A pas de géant
Barbès Clichy
Janvier
La liberté
Le drapeau
Naître gitan
Pas du gâteau
Quand tu m'diras
Soir de retour
Tous les jours
Bob Marley
Redemption song
Merzhin
Messieurs dames
Mickey 3D
Ma grand-mère
Respire
Muse
Dark shines
Falling down
Unintended
Nirvana
Rape me
Smells like teen spirit
Noir Désir
Bouquet de nerfs
L'homme pressé
Tostaky
Un jour en France
Oasis
Wonderwall
Pink Floyd
Is there anybody out there
Wish you were here
The Pixies
Where is my mind
The Police
Roxanne
Portishead
Roads
Radiohead
15 step
Creep (acoustic)
Fake plastic trees
Go slowly
How to disappear completely
I might be wrong
I will
Karma police
Lucky
Paranoid android
Street spirit [fade out]
Red Hot Chili Peppers
I could have lied
REM
Losing my religion (Ukulele)
Ridan
Partie de golf
Sanseverino
La cigarette
Maigrir
Sinsemilia
Tout le bonheur du monde
Têtes Raides
Bibliothèque
Fragile
Ginette
Je chante
Les choses
Trust
Antisocial
U2
Desire
Sunday bloody sunday