Tablatures de guitare Partoches.fr, tablatures de guitare avec extraits audios au format mp3.



Recherche sur le site
  Accueil > Tablatures > 15 step ( Radiohead )   Tabs
écouter les extraits imprimer la tablature
Radiohead
15 step
(Album : In Rainbows)
Transcription: Oliv'

1. Riff 1
e---------------------------------------------------------
b-------4---4-4-------6---4-6-------7---6---------6---4---
g-------4---6-4-------6---6-6-------8---8-8-------6---6-6-
d---------------------------------------------------------
a---------------4-------------6-------------4-------------
e-4-------------------------------------------------------


2. Riff 2
e--------7--------------------9-----------------------11---11-11-
b--------------9P7-------------------11P9-------------11---12-11-
g-/8---------8-----8---10---------10------10---11----------------
d----------------------------------------------------------------
a----------------------------------------------------------------
e----------------------------------------------------------------


e--------9----------------------7-------------------------------
b---------------11P9------------------9P7-------------9---11--9-
g-10---------10------10---8---------8-----8----------10---10-10-
d---------------------------------------------11----------------
a---------------------------------------------------------------
e---------------------------------------------------------------

e------------------------------
b-------7--------------6-- -----
g-------8---10-8-------6---8-6-
d-9--------------6-------------
a------------------------------
e------------------------------

3. Riff 3
e-------------------------------------------------------
b---------------9-----------------9-----------------8---
g-9-----------------9-----------------8-----------------
d-----11----------------11----------------10------------
a----------11----------------11----------------10-------
e-9-----------------9-----------------8-----------------


e-------------------------------------------------------------
b-------------------------4---2-----------------------4---2---
g-8-----------------------4---4-4-------3---4-3-------4---4-4-
d-----10------------------------------------------------------
a----------10-------------------------------------------------
e-8-----------------4-------------4-------------4-------------

e---------------------------------------------------------
b-------4---2-----------------------4---2-----------------
g-------4---4-4-------3---4-3-------4---4-4-------3---4-3-
d---------------------------------------------------------
a---------------------------------------------------------
e-4-------------4-------------4-------------4-------------
Vos réactions sur cette tablature sur le forum
Keren Ann
Nolita
Archive
Again
Bérurier Noir
Salut à toi
Georges Brassens
L'orage
La religieuse
Le gorille
Le pornographe
Le roi
Les copains d'abord
Jeff Buckley
So real
Eric Clapton
Layla
Pauline Croze
La Javanaise
The Cure
Boys don't cry
Just like heaven
Three imaginary boys
Dionysos
Death Song (Ukulele)
The Doors
People are strange
The Eagles
Hotel California (Solo)
Thomas Fersen
Borborygmes
Serge Gainsbourg
La chanson de Prévert
Jimi Hendrix
Purple haze
Loïc Lantoine
Pierrot
The Last Shadow Puppets
My mistakes were made for you
Led Zeppelin
Stairway to heaven
M (Mathieu Chedid)
Mama Sam
Nostalgic du cool
Nostalgic du cool2
Mano Solo
15 ans du matin
A pas de géant
Barbès Clichy
Janvier
La liberté
Le drapeau
Naître gitan
Pas du gâteau
Quand tu m'diras
Soir de retour
Tous les jours
Bob Marley
Redemption song
Merzhin
Messieurs dames
Mickey 3D
Ma grand-mère
Respire
Muse
Dark shines
Falling down
Unintended
Nirvana
Rape me
Smells like teen spirit
Noir Désir
Bouquet de nerfs
L'homme pressé
Tostaky
Un jour en France
Oasis
Wonderwall
Pink Floyd
Is there anybody out there
Wish you were here
The Pixies
Where is my mind
The Police
Roxanne
Portishead
Roads
Radiohead
15 step
Creep (acoustic)
Fake plastic trees
Go slowly
How to disappear completely
I might be wrong
I will
Karma police
Lucky
Paranoid android
Street spirit [fade out]
Red Hot Chili Peppers
I could have lied
REM
Losing my religion (Ukulele)
Ridan
Partie de golf
Sanseverino
La cigarette
Maigrir
Sinsemilia
Tout le bonheur du monde
Têtes Raides
Bibliothèque
Fragile
Ginette
Je chante
Les choses
Trust
Antisocial
U2
Desire
Sunday bloody sunday